It Bites Forum Index It Bites
The place to talk about It Bites
 
 FAQFAQ   SearchSearch   MemberlistMemberlist   UsergroupsUsergroups   RegisterRegister 
 ProfileProfile   Log in to check your private messagesLog in to check your private messages   Log inLog in 

Guitar/ Bass Tab

 
Post new topic   Reply to topic    It Bites Forum Index -> Musicians and Instruments
View previous topic :: View next topic  
Author Message
Sean



Joined: 29 Nov 2006
Posts: 1089
Location: Brumigum

PostPosted: Wed Apr 04, 2007 7:31 pm    Post subject: Guitar/ Bass Tab Reply with quote

has anyone got any Tab for IB. It would be great if you could get it on-line.

" when you have a minute JM tab us all the IB song. Cheers"
_________________
" VAMPIRES"
Back to top
View user's profile Send private message Send e-mail Visit poster's website
batchain
The Dark Knight


Joined: 05 Aug 2006
Posts: 4994
Location: The Cave

PostPosted: Thu Apr 05, 2007 7:15 am    Post subject: Reply with quote

Hereís the link to Mandyís It Bites site with some tabs:

http://www.mandy.co.uk/it-bites/ "music" link

It has guitar tabs for:

Still to young to remember
The big lad in the windmill
Yellow Christian
Once around the world

Guitar chords for:

All in red
Still to young to remember
Yellow Christian
Youíll never go to heaven

Bass tabs for:

I got you

Not sure you wrote (transcribed) them (several invoved) and, as I canít read them (yet), canít comment on accuracy.

What do you reckon experts?

B xx Razz
_________________
Doin' the work of a hundred men..........
Back to top
View user's profile Send private message
Sean



Joined: 29 Nov 2006
Posts: 1089
Location: Brumigum

PostPosted: Thu Apr 05, 2007 7:24 am    Post subject: Reply with quote

Yes very good indeed. Have you mastered any yet Batch???
_________________
" VAMPIRES"
Back to top
View user's profile Send private message Send e-mail Visit poster's website
batchain
The Dark Knight


Joined: 05 Aug 2006
Posts: 4994
Location: The Cave

PostPosted: Thu Apr 05, 2007 7:29 am    Post subject: Reply with quote

Sean wrote:
Yes very good indeed. Have you mastered any yet Batch???


No! Razz
_________________
Doin' the work of a hundred men..........
Back to top
View user's profile Send private message
Sean



Joined: 29 Nov 2006
Posts: 1089
Location: Brumigum

PostPosted: Thu Apr 05, 2007 11:40 am    Post subject: Reply with quote

spending to much time posting and not enough practising!!!!!!!!!!!!!!!
_________________
" VAMPIRES"
Back to top
View user's profile Send private message Send e-mail Visit poster's website
percyslice



Joined: 11 Jul 2006
Posts: 398
Location: potteries

PostPosted: Thu Apr 05, 2007 10:02 pm    Post subject: Reply with quote

Sean wrote:
spending to much time posting and not enough practising!!!!!!!!!!!!!!!


that guitar needs to be played mr Shocked
_________________
Im a big lad but cant find a windmill
www.myspace.com/percyslice
Back to top
View user's profile Send private message Send e-mail Visit poster's website MSN Messenger
lawrence



Joined: 21 May 2007
Posts: 18

PostPosted: Tue May 22, 2007 10:04 pm    Post subject: Reply with quote

Here is Kiss Like Judas (you will need to copy the tab and put it into word or notepad and use a font like courier/courier new to display it)

Enjoy.

Chorus/Intro
e|-10------------------------------------------
B|-10-------8-------8-------8---6-6-6-5--------
G|-7--------7-------7-------7---5-5-5-5--------
D|-0--0-0-0---0-0-0---0-0-0---0----------------
A|---------------------------------------------
E|---------------------------------------------

Clean Picking Pattern
e|-3-2-0---0-2-3-2-0---0-2-3-2-0---0-2-3-2-0---
B|-------3-----------3-----------3-----------3-
G|---------------------------------------------
D|---------------------------------------------
A|---------------------------------------------
E|---------------------------------------------

e|-------2-3-5-
B|-----3-------
G|-2-0---------
D|-------------
A|-------------
E|-------------

Bridge
e|---------------------------------------------
B|-------------------5-------7-------5-------7-
G|-------------------5-------7-------5-------7-
D|-0-2-4-5-4-2-0-----5-------7-------5-------7-
A|---------------2-0-0-0-0-0-0-0-0-0-0-0-0-0-0-
E|---------------------------------------------

e|-------------------------------------------------
B|-------5-------7-------5-------7-------5-------7-
G|-------5-------7-------5-------7-------5-------7-
D|-------5-------7-------5-------7-------5-------7-
A|-0-0-0-0-0-0-0-0-0-0-0-0-0-0-0-0-0-0-0-0-0-0-0-0-
E|-------------------------------------------------

etc.

Solo...(repeat x4)
e|------10-----7\5------5-----------------------
B|---------7-8------------8-----7--10-----7-----
G|--6/7------------6/7----------------------9-7-
D|--------------------------8/9-------8/9-------
A|----------------------------------------------
E|----------------------------------------------
Back to top
View user's profile Send private message
Fill1985



Joined: 01 Aug 2008
Posts: 9

PostPosted: Fri Aug 01, 2008 6:05 pm    Post subject: Reply with quote

I've sort of worked out You'll never go to heaven, its not complete thou as I haven't/can't work out the solo. But here it is ......

(You'll need to copy it into notepad as this put the words in the right place)


You'll Never Go To Heaven Intro Guitar Tab

(Some bits worked out from the Live Version in Montreux)



(double bend)
e--------------------------------------------3-------5---3~~---------5---3~-------|
B---6-------3-5-6--6-5-3-----b---b---------5---5-3-----5---------------5----------|
G---------5--------------5--7-9-7-9----2-5---------5------------------------------|
D------------------------------------5--------------------------------------------|
A---------------------------------------------------------------------------------|
E---------------------------------------------------------------------------------|

S S (This is in a live version)
e-----------------------------------------8/--------------------------------------|
B---6-------3-5-6--6-5-------/------------8/----3-5-----3-5-----------------------|
G---------5------------0-0--2-5---------------------------------------------------|
D---------------------------------------------------------------------------------|
A---------------------------------------------------------------------------------|
E---------------------------------------------------------------------------------|




D D
I'll take you back in time when we both learned all the rules
D D
The teachers were so blind for the need to tell the truth
G F
Guilty conscience developed slowly
G F
years of Wisdom, basking in glory
G F C A# A G F E C
Kept in demand by the threatening holy hearing

e--------------------------------------------|
B--------------------------------------------|
G----------2---------------------------------|
D------2-5-----------------------------------|
A--0-3---------------------------------------|
E--------------------------------------------|

Chorus
D
And you'll never go to heaven
C
It's a crying shame that the heart breaks
A
And you've only your self to blame
D
And you'll never go to heaven
F (Same as end of intro)
You'll never do it again

e---------------------------------------|
B-----3-5-----3-5-----------------------|
G---------------------------------------|
D---------------------------------------|
A---------------------------------------|
E---------------------------------------|


D D
Left in the wilds by the long lost search for truth
D D
A written compromise was the best that they could do
G F
Followed a faith mother taught me
G F
Quelled Saturday thought of Sunday
G F C A# A G F E C
And out of it all came a little boy a'screaming

e--------------------------------------------|
B--------------------------------------------|
G----------2---------------------------------|
D------2-5-----------------------------------|
A--0-3---------------------------------------|
E--------------------------------------------|

Chorus
D
And you'll never go to heaven
C
It's a crying shame that the heart breaks
A
And you've only your self to blame
D
And you'll never go to heaven
F
You'll never do it again

e---------------7-----------------------|
B-----3-5-----3-------------------------|
G---------------------------------------|
D---------------------------------------|
A---------------------------------------|
E---------------------------------------|

Solo ??????

e--------------------------------------------|
B--------------------------------------------|
G----------2---------------------------------|
D------2-5-----------------------------------|
A--0-3---------------------------------------|
E--------------------------------------------|

C
It's a crying shame that the heart breaks
A
And you've only your self to blame
D
And you'll never go to heaven
F
You'll never do it again
C
It's a crying shame that the heart breaks
A
And you've only your self to blame
D
And you'll never go to heaven
F
You'll never do it again
C
It's a crying shame that the heart breaks
A
And you've only your self to blame
D
And you'll never go to heaven
F
You'll never do it again
Back to top
View user's profile Send private message
Bonzodrumz



Joined: 10 Sep 2007
Posts: 3666
Location: When the levee breaks I'll be in the Ocean!

PostPosted: Fri Aug 01, 2008 8:27 pm    Post subject: Reply with quote

Cool

Fill

Well done mate! You deserve a medal for this effort!
_________________
Bonzodrumz

http://www.myspace.com/thebraziliansband
Back to top
View user's profile Send private message Visit poster's website
Fill1985



Joined: 01 Aug 2008
Posts: 9

PostPosted: Sat Aug 02, 2008 1:27 pm    Post subject: Reply with quote

Thanks mate, took me ages to work out, Francis likes his randomness on the guitar which makes it extremely difficult (hence why no solo yet). Put lyrics on there to as its great to sing and play.
Back to top
View user's profile Send private message
Sean



Joined: 29 Nov 2006
Posts: 1089
Location: Brumigum

PostPosted: Tue Aug 05, 2008 12:01 pm    Post subject: Reply with quote

great effort. now if you could see your way to completing all the other songs . No rush any time in the next week or so. Cheers
_________________
" VAMPIRES"
Back to top
View user's profile Send private message Send e-mail Visit poster's website
Fill1985



Joined: 01 Aug 2008
Posts: 9

PostPosted: Tue Aug 05, 2008 9:34 pm    Post subject: Reply with quote

Any requests ? I've worked out little bits of each songs but not the entire songs. I'll try to work something out the weekend or maybe next week (due to working a twilight shift).
Back to top
View user's profile Send private message
Sean



Joined: 29 Nov 2006
Posts: 1089
Location: Brumigum

PostPosted: Fri Aug 08, 2008 8:01 am    Post subject: Reply with quote

I was joking, but seen as you appear so committed any thing will be good
_________________
" VAMPIRES"
Back to top
View user's profile Send private message Send e-mail Visit poster's website
percyslice



Joined: 11 Jul 2006
Posts: 398
Location: potteries

PostPosted: Thu Aug 14, 2008 8:16 pm    Post subject: Reply with quote

I have few bits of tab if you send me your e myther I will send you wot Ive got
Very Happy Very Happy Very Happy Very Happy

percyslice@yahoo.co.uk
_________________
Im a big lad but cant find a windmill
www.myspace.com/percyslice
Back to top
View user's profile Send private message Send e-mail Visit poster's website MSN Messenger
Sean



Joined: 29 Nov 2006
Posts: 1089
Location: Brumigum

PostPosted: Tue Sep 02, 2008 12:35 pm    Post subject: Reply with quote

top stuff pineapple percy
_________________
" VAMPIRES"
Back to top
View user's profile Send private message Send e-mail Visit poster's website
Display posts from previous:   
Post new topic   Reply to topic    It Bites Forum Index -> Musicians and Instruments All times are GMT
Page 1 of 1

 
Jump to:  
You cannot post new topics in this forum
You cannot reply to topics in this forum
You cannot edit your posts in this forum
You cannot delete your posts in this forum
You cannot vote in polls in this forum


Powered by phpBB © 2001, 2005 phpBB Group